ISO-10303-21;
HEADER;
/* Generated by software containing ST-Developer
 * from STEP Tools, Inc. (www.steptools.com) 
 */

FILE_DESCRIPTION(
/* description */ (''),
/* implementation_level */ '2;1');

FILE_NAME(
/* name */ 'C:\\Users\\raccy_lai\\Desktop\\DN-90ELMA\\ISOF-BL-250.stp',

/* time_stamp */ '2016-07-25T07:58:14+08:00',
/* author */ ('raccy_lai'),
/* organization */ (''),
/* preprocessor_version */ 'ST-DEVELOPER v16.1',
/* originating_system */ 'Autodesk Inventor 2016',
/* authorisation */ '');

FILE_SCHEMA (('AUTOMOTIVE_DESIGN { 1 0 10303 214 3 1 1 }'));
ENDSEC;

DATA;
#10=MECHANICAL_DESIGN_GEOMETRIC_PRESENTATION_REPRESENTATION('',(#13),#557);
#11=SHAPE_REPRESENTATION_RELATIONSHIP('SRR','None',#566,#12);
#12=ADVANCED_BREP_SHAPE_REPRESENTATION('',(#14),#556);
#13=STYLED_ITEM('',(#575),#14);
#14=MANIFOLD_SOLID_BREP('\X2\5BE69AD4\X0\1',#323);
#15=PLANE('',#364);
#16=PLANE('',#368);
#17=PLANE('',#372);
#18=PLANE('',#373);
#19=FACE_BOUND('',#80,.T.);
#20=FACE_BOUND('',#82,.T.);
#21=FACE_BOUND('',#84,.T.);
#22=FACE_BOUND('',#86,.T.);
#23=FACE_BOUND('',#88,.T.);
#24=FACE_BOUND('',#90,.T.);
#25=FACE_BOUND('',#92,.T.);
#26=FACE_BOUND('',#94,.T.);
#27=FACE_BOUND('',#96,.T.);
#28=FACE_BOUND('',#98,.T.);
#29=FACE_BOUND('',#100,.T.);
#30=FACE_BOUND('',#102,.T.);
#31=FACE_BOUND('',#104,.T.);
#32=FACE_BOUND('',#106,.T.);
#33=FACE_BOUND('',#107,.T.);
#34=FACE_BOUND('',#108,.T.);
#35=FACE_BOUND('',#109,.T.);
#36=FACE_BOUND('',#110,.T.);
#37=FACE_BOUND('',#111,.T.);
#38=FACE_BOUND('',#112,.T.);
#39=FACE_BOUND('',#113,.T.);
#40=FACE_BOUND('',#114,.T.);
#41=FACE_BOUND('',#115,.T.);
#42=FACE_BOUND('',#116,.T.);
#43=FACE_BOUND('',#117,.T.);
#44=FACE_BOUND('',#118,.T.);
#45=FACE_BOUND('',#120,.T.);
#46=FACE_BOUND('',#122,.T.);
#47=FACE_BOUND('',#124,.T.);
#48=FACE_BOUND('',#127,.T.);
#49=FACE_BOUND('',#128,.T.);
#50=FACE_BOUND('',#129,.T.);
#51=FACE_BOUND('',#130,.T.);
#52=FACE_BOUND('',#131,.T.);
#53=FACE_BOUND('',#132,.T.);
#54=FACE_BOUND('',#133,.T.);
#55=FACE_BOUND('',#134,.T.);
#56=FACE_BOUND('',#135,.T.);
#57=FACE_BOUND('',#136,.T.);
#58=FACE_BOUND('',#137,.T.);
#59=FACE_BOUND('',#138,.T.);
#60=FACE_OUTER_BOUND('',#79,.T.);
#61=FACE_OUTER_BOUND('',#81,.T.);
#62=FACE_OUTER_BOUND('',#83,.T.);
#63=FACE_OUTER_BOUND('',#85,.T.);
#64=FACE_OUTER_BOUND('',#87,.T.);
#65=FACE_OUTER_BOUND('',#89,.T.);
#66=FACE_OUTER_BOUND('',#91,.T.);
#67=FACE_OUTER_BOUND('',#93,.T.);
#68=FACE_OUTER_BOUND('',#95,.T.);
#69=FACE_OUTER_BOUND('',#97,.T.);
#70=FACE_OUTER_BOUND('',#99,.T.);
#71=FACE_OUTER_BOUND('',#101,.T.);
#72=FACE_OUTER_BOUND('',#103,.T.);
#73=FACE_OUTER_BOUND('',#105,.T.);
#74=FACE_OUTER_BOUND('',#119,.T.);
#75=FACE_OUTER_BOUND('',#121,.T.);
#76=FACE_OUTER_BOUND('',#123,.T.);
#77=FACE_OUTER_BOUND('',#125,.T.);
#78=FACE_OUTER_BOUND('',#126,.T.);
#79=EDGE_LOOP('',(#229));
#80=EDGE_LOOP('',(#230));
#81=EDGE_LOOP('',(#231));
#82=EDGE_LOOP('',(#232));
#83=EDGE_LOOP('',(#233));
#84=EDGE_LOOP('',(#234));
#85=EDGE_LOOP('',(#235));
#86=EDGE_LOOP('',(#236));
#87=EDGE_LOOP('',(#237));
#88=EDGE_LOOP('',(#238));
#89=EDGE_LOOP('',(#239));
#90=EDGE_LOOP('',(#240));
#91=EDGE_LOOP('',(#241));
#92=EDGE_LOOP('',(#242));
#93=EDGE_LOOP('',(#243));
#94=EDGE_LOOP('',(#244));
#95=EDGE_LOOP('',(#245));
#96=EDGE_LOOP('',(#246));
#97=EDGE_LOOP('',(#247));
#98=EDGE_LOOP('',(#248));
#99=EDGE_LOOP('',(#249));
#100=EDGE_LOOP('',(#250));
#101=EDGE_LOOP('',(#251));
#102=EDGE_LOOP('',(#252));
#103=EDGE_LOOP('',(#253));
#104=EDGE_LOOP('',(#254));
#105=EDGE_LOOP('',(#255));
#106=EDGE_LOOP('',(#256));
#107=EDGE_LOOP('',(#257));
#108=EDGE_LOOP('',(#258));
#109=EDGE_LOOP('',(#259));
#110=EDGE_LOOP('',(#260));
#111=EDGE_LOOP('',(#261));
#112=EDGE_LOOP('',(#262));
#113=EDGE_LOOP('',(#263));
#114=EDGE_LOOP('',(#264));
#115=EDGE_LOOP('',(#265));
#116=EDGE_LOOP('',(#266));
#117=EDGE_LOOP('',(#267));
#118=EDGE_LOOP('',(#268));
#119=EDGE_LOOP('',(#269));
#120=EDGE_LOOP('',(#270));
#121=EDGE_LOOP('',(#271));
#122=EDGE_LOOP('',(#272));
#123=EDGE_LOOP('',(#273));
#124=EDGE_LOOP('',(#274));
#125=EDGE_LOOP('',(#275));
#126=EDGE_LOOP('',(#276));
#127=EDGE_LOOP('',(#277));
#128=EDGE_LOOP('',(#278));
#129=EDGE_LOOP('',(#279));
#130=EDGE_LOOP('',(#280));
#131=EDGE_LOOP('',(#281));
#132=EDGE_LOOP('',(#282));
#133=EDGE_LOOP('',(#283));
#134=EDGE_LOOP('',(#284));
#135=EDGE_LOOP('',(#285));
#136=EDGE_LOOP('',(#286));
#137=EDGE_LOOP('',(#287));
#138=EDGE_LOOP('',(#288));
#139=CIRCLE('',#326,5.5);
#140=CIRCLE('',#327,5.5);
#141=CIRCLE('',#329,5.5);
#142=CIRCLE('',#330,5.5);
#143=CIRCLE('',#332,5.5);
#144=CIRCLE('',#333,5.5);
#145=CIRCLE('',#335,5.5);
#146=CIRCLE('',#336,5.5);
#147=CIRCLE('',#338,5.5);
#148=CIRCLE('',#339,5.5);
#149=CIRCLE('',#341,5.5);
#150=CIRCLE('',#342,5.5);
#151=CIRCLE('',#344,5.5);
#152=CIRCLE('',#345,5.5);
#153=CIRCLE('',#347,5.5);
#154=CIRCLE('',#348,5.5);
#155=CIRCLE('',#350,5.5);
#156=CIRCLE('',#351,5.5);
#157=CIRCLE('',#353,5.5);
#158=CIRCLE('',#354,5.5);
#159=CIRCLE('',#356,5.5);
#160=CIRCLE('',#357,5.5);
#161=CIRCLE('',#359,5.5);
#162=CIRCLE('',#360,5.5);
#163=CIRCLE('',#362,167.5);
#164=CIRCLE('',#363,167.5);
#165=CIRCLE('',#365,130.6);
#166=CIRCLE('',#367,130.6);
#167=CIRCLE('',#369,124.25);
#168=CIRCLE('',#371,124.25);
#169=VERTEX_POINT('',#476);
#170=VERTEX_POINT('',#478);
#171=VERTEX_POINT('',#481);
#172=VERTEX_POINT('',#483);
#173=VERTEX_POINT('',#486);
#174=VERTEX_POINT('',#488);
#175=VERTEX_POINT('',#491);
#176=VERTEX_POINT('',#493);
#177=VERTEX_POINT('',#496);
#178=VERTEX_POINT('',#498);
#179=VERTEX_POINT('',#501);
#180=VERTEX_POINT('',#503);
#181=VERTEX_POINT('',#506);
#182=VERTEX_POINT('',#508);
#183=VERTEX_POINT('',#511);
#184=VERTEX_POINT('',#513);
#185=VERTEX_POINT('',#516);
#186=VERTEX_POINT('',#518);
#187=VERTEX_POINT('',#521);
#188=VERTEX_POINT('',#523);
#189=VERTEX_POINT('',#526);
#190=VERTEX_POINT('',#528);
#191=VERTEX_POINT('',#531);
#192=VERTEX_POINT('',#533);
#193=VERTEX_POINT('',#536);
#194=VERTEX_POINT('',#538);
#195=VERTEX_POINT('',#541);
#196=VERTEX_POINT('',#544);
#197=VERTEX_POINT('',#547);
#198=VERTEX_POINT('',#550);
#199=EDGE_CURVE('',#169,#169,#139,.T.);
#200=EDGE_CURVE('',#170,#170,#140,.T.);
#201=EDGE_CURVE('',#171,#171,#141,.T.);
#202=EDGE_CURVE('',#172,#172,#142,.T.);
#203=EDGE_CURVE('',#173,#173,#143,.T.);
#204=EDGE_CURVE('',#174,#174,#144,.T.);
#205=EDGE_CURVE('',#175,#175,#145,.T.);
#206=EDGE_CURVE('',#176,#176,#146,.T.);
#207=EDGE_CURVE('',#177,#177,#147,.T.);
#208=EDGE_CURVE('',#178,#178,#148,.T.);
#209=EDGE_CURVE('',#179,#179,#149,.T.);
#210=EDGE_CURVE('',#180,#180,#150,.T.);
#211=EDGE_CURVE('',#181,#181,#151,.T.);
#212=EDGE_CURVE('',#182,#182,#152,.T.);
#213=EDGE_CURVE('',#183,#183,#153,.T.);
#214=EDGE_CURVE('',#184,#184,#154,.T.);
#215=EDGE_CURVE('',#185,#185,#155,.T.);
#216=EDGE_CURVE('',#186,#186,#156,.T.);
#217=EDGE_CURVE('',#187,#187,#157,.T.);
#218=EDGE_CURVE('',#188,#188,#158,.T.);
#219=EDGE_CURVE('',#189,#189,#159,.T.);
#220=EDGE_CURVE('',#190,#190,#160,.T.);
#221=EDGE_CURVE('',#191,#191,#161,.T.);
#222=EDGE_CURVE('',#192,#192,#162,.T.);
#223=EDGE_CURVE('',#193,#193,#163,.T.);
#224=EDGE_CURVE('',#194,#194,#164,.T.);
#225=EDGE_CURVE('',#195,#195,#165,.T.);
#226=EDGE_CURVE('',#196,#196,#166,.T.);
#227=EDGE_CURVE('',#197,#197,#167,.T.);
#228=EDGE_CURVE('',#198,#198,#168,.T.);
#229=ORIENTED_EDGE('',*,*,#199,.F.);
#230=ORIENTED_EDGE('',*,*,#200,.F.);
#231=ORIENTED_EDGE('',*,*,#201,.F.);
#232=ORIENTED_EDGE('',*,*,#202,.F.);
#233=ORIENTED_EDGE('',*,*,#203,.F.);
#234=ORIENTED_EDGE('',*,*,#204,.F.);
#235=ORIENTED_EDGE('',*,*,#205,.F.);
#236=ORIENTED_EDGE('',*,*,#206,.F.);
#237=ORIENTED_EDGE('',*,*,#207,.F.);
#238=ORIENTED_EDGE('',*,*,#208,.F.);
#239=ORIENTED_EDGE('',*,*,#209,.F.);
#240=ORIENTED_EDGE('',*,*,#210,.F.);
#241=ORIENTED_EDGE('',*,*,#211,.F.);
#242=ORIENTED_EDGE('',*,*,#212,.F.);
#243=ORIENTED_EDGE('',*,*,#213,.F.);
#244=ORIENTED_EDGE('',*,*,#214,.F.);
#245=ORIENTED_EDGE('',*,*,#215,.F.);
#246=ORIENTED_EDGE('',*,*,#216,.F.);
#247=ORIENTED_EDGE('',*,*,#217,.F.);
#248=ORIENTED_EDGE('',*,*,#218,.F.);
#249=ORIENTED_EDGE('',*,*,#219,.F.);
#250=ORIENTED_EDGE('',*,*,#220,.F.);
#251=ORIENTED_EDGE('',*,*,#221,.F.);
#252=ORIENTED_EDGE('',*,*,#222,.F.);
#253=ORIENTED_EDGE('',*,*,#223,.F.);
#254=ORIENTED_EDGE('',*,*,#224,.T.);
#255=ORIENTED_EDGE('',*,*,#223,.T.);
#256=ORIENTED_EDGE('',*,*,#200,.T.);
#257=ORIENTED_EDGE('',*,*,#202,.T.);
#258=ORIENTED_EDGE('',*,*,#204,.T.);
#259=ORIENTED_EDGE('',*,*,#206,.T.);
#260=ORIENTED_EDGE('',*,*,#208,.T.);
#261=ORIENTED_EDGE('',*,*,#210,.T.);
#262=ORIENTED_EDGE('',*,*,#212,.T.);
#263=ORIENTED_EDGE('',*,*,#214,.T.);
#264=ORIENTED_EDGE('',*,*,#216,.T.);
#265=ORIENTED_EDGE('',*,*,#218,.T.);
#266=ORIENTED_EDGE('',*,*,#220,.T.);
#267=ORIENTED_EDGE('',*,*,#222,.T.);
#268=ORIENTED_EDGE('',*,*,#225,.F.);
#269=ORIENTED_EDGE('',*,*,#226,.F.);
#270=ORIENTED_EDGE('',*,*,#225,.T.);
#271=ORIENTED_EDGE('',*,*,#226,.T.);
#272=ORIENTED_EDGE('',*,*,#227,.F.);
#273=ORIENTED_EDGE('',*,*,#228,.F.);
#274=ORIENTED_EDGE('',*,*,#227,.T.);
#275=ORIENTED_EDGE('',*,*,#228,.T.);
#276=ORIENTED_EDGE('',*,*,#224,.F.);
#277=ORIENTED_EDGE('',*,*,#199,.T.);
#278=ORIENTED_EDGE('',*,*,#201,.T.);
#279=ORIENTED_EDGE('',*,*,#203,.T.);
#280=ORIENTED_EDGE('',*,*,#205,.T.);
#281=ORIENTED_EDGE('',*,*,#207,.T.);
#282=ORIENTED_EDGE('',*,*,#209,.T.);
#283=ORIENTED_EDGE('',*,*,#211,.T.);
#284=ORIENTED_EDGE('',*,*,#213,.T.);
#285=ORIENTED_EDGE('',*,*,#215,.T.);
#286=ORIENTED_EDGE('',*,*,#217,.T.);
#287=ORIENTED_EDGE('',*,*,#219,.T.);
#288=ORIENTED_EDGE('',*,*,#221,.T.);
#289=CYLINDRICAL_SURFACE('',#325,5.5);
#290=CYLINDRICAL_SURFACE('',#328,5.5);
#291=CYLINDRICAL_SURFACE('',#331,5.5);
#292=CYLINDRICAL_SURFACE('',#334,5.5);
#293=CYLINDRICAL_SURFACE('',#337,5.5);
#294=CYLINDRICAL_SURFACE('',#340,5.5);
#295=CYLINDRICAL_SURFACE('',#343,5.5);
#296=CYLINDRICAL_SURFACE('',#346,5.5);
#297=CYLINDRICAL_SURFACE('',#349,5.5);
#298=CYLINDRICAL_SURFACE('',#352,5.5);
#299=CYLINDRICAL_SURFACE('',#355,5.5);
#300=CYLINDRICAL_SURFACE('',#358,5.5);
#301=CYLINDRICAL_SURFACE('',#361,167.5);
#302=CYLINDRICAL_SURFACE('',#366,130.6);
#303=CYLINDRICAL_SURFACE('',#370,124.25);
#304=ADVANCED_FACE('',(#60,#19),#289,.F.);
#305=ADVANCED_FACE('',(#61,#20),#290,.F.);
#306=ADVANCED_FACE('',(#62,#21),#291,.F.);
#307=ADVANCED_FACE('',(#63,#22),#292,.F.);
#308=ADVANCED_FACE('',(#64,#23),#293,.F.);
#309=ADVANCED_FACE('',(#65,#24),#294,.F.);
#310=ADVANCED_FACE('',(#66,#25),#295,.F.);
#311=ADVANCED_FACE('',(#67,#26),#296,.F.);
#312=ADVANCED_FACE('',(#68,#27),#297,.F.);
#313=ADVANCED_FACE('',(#69,#28),#298,.F.);
#314=ADVANCED_FACE('',(#70,#29),#299,.F.);
#315=ADVANCED_FACE('',(#71,#30),#300,.F.);
#316=ADVANCED_FACE('',(#72,#31),#301,.T.);
#317=ADVANCED_FACE('',(#73,#32,#33,#34,#35,#36,#37,#38,#39,#40,#41,#42,
#43,#44),#15,.T.);
#318=ADVANCED_FACE('',(#74,#45),#302,.F.);
#319=ADVANCED_FACE('',(#75,#46),#16,.T.);
#320=ADVANCED_FACE('',(#76,#47),#303,.T.);
#321=ADVANCED_FACE('',(#77),#17,.T.);
#322=ADVANCED_FACE('',(#78,#48,#49,#50,#51,#52,#53,#54,#55,#56,#57,#58,
#59),#18,.T.);
#323=CLOSED_SHELL('',(#304,#305,#306,#307,#308,#309,#310,#311,#312,#313,
#314,#315,#316,#317,#318,#319,#320,#321,#322));
#324=AXIS2_PLACEMENT_3D('placement',#474,#374,#375);
#325=AXIS2_PLACEMENT_3D('',#475,#376,#377);
#326=AXIS2_PLACEMENT_3D('',#477,#378,#379);
#327=AXIS2_PLACEMENT_3D('',#479,#380,#381);
#328=AXIS2_PLACEMENT_3D('',#480,#382,#383);
#329=AXIS2_PLACEMENT_3D('',#482,#384,#385);
#330=AXIS2_PLACEMENT_3D('',#484,#386,#387);
#331=AXIS2_PLACEMENT_3D('',#485,#388,#389);
#332=AXIS2_PLACEMENT_3D('',#487,#390,#391);
#333=AXIS2_PLACEMENT_3D('',#489,#392,#393);
#334=AXIS2_PLACEMENT_3D('',#490,#394,#395);
#335=AXIS2_PLACEMENT_3D('',#492,#396,#397);
#336=AXIS2_PLACEMENT_3D('',#494,#398,#399);
#337=AXIS2_PLACEMENT_3D('',#495,#400,#401);
#338=AXIS2_PLACEMENT_3D('',#497,#402,#403);
#339=AXIS2_PLACEMENT_3D('',#499,#404,#405);
#340=AXIS2_PLACEMENT_3D('',#500,#406,#407);
#341=AXIS2_PLACEMENT_3D('',#502,#408,#409);
#342=AXIS2_PLACEMENT_3D('',#504,#410,#411);
#343=AXIS2_PLACEMENT_3D('',#505,#412,#413);
#344=AXIS2_PLACEMENT_3D('',#507,#414,#415);
#345=AXIS2_PLACEMENT_3D('',#509,#416,#417);
#346=AXIS2_PLACEMENT_3D('',#510,#418,#419);
#347=AXIS2_PLACEMENT_3D('',#512,#420,#421);
#348=AXIS2_PLACEMENT_3D('',#514,#422,#423);
#349=AXIS2_PLACEMENT_3D('',#515,#424,#425);
#350=AXIS2_PLACEMENT_3D('',#517,#426,#427);
#351=AXIS2_PLACEMENT_3D('',#519,#428,#429);
#352=AXIS2_PLACEMENT_3D('',#520,#430,#431);
#353=AXIS2_PLACEMENT_3D('',#522,#432,#433);
#354=AXIS2_PLACEMENT_3D('',#524,#434,#435);
#355=AXIS2_PLACEMENT_3D('',#525,#436,#437);
#356=AXIS2_PLACEMENT_3D('',#527,#438,#439);
#357=AXIS2_PLACEMENT_3D('',#529,#440,#441);
#358=AXIS2_PLACEMENT_3D('',#530,#442,#443);
#359=AXIS2_PLACEMENT_3D('',#532,#444,#445);
#360=AXIS2_PLACEMENT_3D('',#534,#446,#447);
#361=AXIS2_PLACEMENT_3D('',#535,#448,#449);
#362=AXIS2_PLACEMENT_3D('',#537,#450,#451);
#363=AXIS2_PLACEMENT_3D('',#539,#452,#453);
#364=AXIS2_PLACEMENT_3D('',#540,#454,#455);
#365=AXIS2_PLACEMENT_3D('',#542,#456,#457);
#366=AXIS2_PLACEMENT_3D('',#543,#458,#459);
#367=AXIS2_PLACEMENT_3D('',#545,#460,#461);
#368=AXIS2_PLACEMENT_3D('',#546,#462,#463);
#369=AXIS2_PLACEMENT_3D('',#548,#464,#465);
#370=AXIS2_PLACEMENT_3D('',#549,#466,#467);
#371=AXIS2_PLACEMENT_3D('',#551,#468,#469);
#372=AXIS2_PLACEMENT_3D('',#552,#470,#471);
#373=AXIS2_PLACEMENT_3D('',#553,#472,#473);
#374=DIRECTION('axis',(0.,0.,1.));
#375=DIRECTION('refdir',(1.,0.,0.));
#376=DIRECTION('center_axis',(8.53966979967229E-32,1.,4.93038065763132E-32));
#377=DIRECTION('ref_axis',(0.866025403784438,-9.86076131526264E-32,0.5));
#378=DIRECTION('center_axis',(9.86076131526264E-32,1.,0.));
#379=DIRECTION('ref_axis',(0.866025403784438,-9.86076131526264E-32,0.5));
#380=DIRECTION('center_axis',(-9.86076131526264E-32,-1.,0.));
#381=DIRECTION('ref_axis',(0.866025403784438,-9.86076131526264E-32,0.5));
#382=DIRECTION('center_axis',(4.93038065763131E-32,1.,8.5396697996723E-32));
#383=DIRECTION('ref_axis',(0.499999999999999,-9.86076131526263E-32,0.866025403784439));
#384=DIRECTION('center_axis',(9.86076131526264E-32,1.,0.));
#385=DIRECTION('ref_axis',(0.499999999999999,-9.86076131526263E-32,0.866025403784439));
#386=DIRECTION('center_axis',(-9.86076131526264E-32,-1.,0.));
#387=DIRECTION('ref_axis',(0.499999999999999,-9.86076131526263E-32,0.866025403784439));
#388=DIRECTION('center_axis',(-2.18952885050753E-47,1.,9.86076131526263E-32));
#389=DIRECTION('ref_axis',(-2.01858731750028E-16,-9.86076131526264E-32,
1.));
#390=DIRECTION('center_axis',(9.86076131526264E-32,1.,0.));
#391=DIRECTION('ref_axis',(-2.01858731750028E-16,-9.86076131526264E-32,
1.));
#392=DIRECTION('center_axis',(-9.86076131526264E-32,-1.,0.));
#393=DIRECTION('ref_axis',(-2.01858731750028E-16,-9.86076131526264E-32,
1.));
#394=DIRECTION('center_axis',(-4.93038065763132E-32,1.,8.53966979967229E-32));
#395=DIRECTION('ref_axis',(-0.5,-9.86076131526264E-32,0.866025403784438));
#396=DIRECTION('center_axis',(9.86076131526264E-32,1.,0.));
#397=DIRECTION('ref_axis',(-0.5,-9.86076131526264E-32,0.866025403784438));
#398=DIRECTION('center_axis',(-9.86076131526264E-32,-1.,0.));
#399=DIRECTION('ref_axis',(-0.5,-9.86076131526264E-32,0.866025403784438));
#400=DIRECTION('center_axis',(-8.5396697996723E-32,1.,4.93038065763132E-32));
#401=DIRECTION('ref_axis',(-0.866025403784439,-9.86076131526263E-32,0.5));
#402=DIRECTION('center_axis',(9.86076131526264E-32,1.,0.));
#403=DIRECTION('ref_axis',(-0.866025403784439,-9.86076131526263E-32,0.5));
#404=DIRECTION('center_axis',(-9.86076131526264E-32,-1.,0.));
#405=DIRECTION('ref_axis',(-0.866025403784439,-9.86076131526263E-32,0.5));
#406=DIRECTION('center_axis',(-9.86076131526263E-32,1.,-1.09476442525376E-47));
#407=DIRECTION('ref_axis',(-1.,-9.86076131526264E-32,-1.00929365875014E-16));
#408=DIRECTION('center_axis',(9.86076131526264E-32,1.,0.));
#409=DIRECTION('ref_axis',(-1.,-9.86076131526264E-32,-1.00929365875014E-16));
#410=DIRECTION('center_axis',(-9.86076131526264E-32,-1.,0.));
#411=DIRECTION('ref_axis',(-1.,-9.86076131526264E-32,-1.00929365875014E-16));
#412=DIRECTION('center_axis',(-8.5396697996723E-32,1.,-4.93038065763132E-32));
#413=DIRECTION('ref_axis',(-0.866025403784438,-9.86076131526263E-32,-0.5));
#414=DIRECTION('center_axis',(9.86076131526264E-32,1.,0.));
#415=DIRECTION('ref_axis',(-0.866025403784438,-9.86076131526263E-32,-0.5));
#416=DIRECTION('center_axis',(-9.86076131526264E-32,-1.,0.));
#417=DIRECTION('ref_axis',(-0.866025403784438,-9.86076131526263E-32,-0.5));
#418=DIRECTION('center_axis',(-4.93038065763132E-32,1.,-8.5396697996723E-32));
#419=DIRECTION('ref_axis',(-0.5,-9.86076131526263E-32,-0.866025403784439));
#420=DIRECTION('center_axis',(9.86076131526264E-32,1.,0.));
#421=DIRECTION('ref_axis',(-0.5,-9.86076131526263E-32,-0.866025403784439));
#422=DIRECTION('center_axis',(-9.86076131526264E-32,-1.,0.));
#423=DIRECTION('ref_axis',(-0.5,-9.86076131526263E-32,-0.866025403784439));
#424=DIRECTION('center_axis',(5.47382212626882E-48,1.,-9.86076131526264E-32));
#425=DIRECTION('ref_axis',(5.04646829375071E-17,-9.86076131526264E-32,-1.));
#426=DIRECTION('center_axis',(9.86076131526264E-32,1.,0.));
#427=DIRECTION('ref_axis',(5.04646829375071E-17,-9.86076131526264E-32,-1.));
#428=DIRECTION('center_axis',(-9.86076131526264E-32,-1.,0.));
#429=DIRECTION('ref_axis',(5.04646829375071E-17,-9.86076131526264E-32,-1.));
#430=DIRECTION('center_axis',(4.93038065763132E-32,1.,-8.5396697996723E-32));
#431=DIRECTION('ref_axis',(0.5,-9.86076131526263E-32,-0.866025403784439));
#432=DIRECTION('center_axis',(9.86076131526264E-32,1.,0.));
#433=DIRECTION('ref_axis',(0.5,-9.86076131526263E-32,-0.866025403784439));
#434=DIRECTION('center_axis',(-9.86076131526264E-32,-1.,0.));
#435=DIRECTION('ref_axis',(0.5,-9.86076131526263E-32,-0.866025403784439));
#436=DIRECTION('center_axis',(8.5396697996723E-32,1.,-4.93038065763132E-32));
#437=DIRECTION('ref_axis',(0.866025403784439,-9.86076131526264E-32,-0.5));
#438=DIRECTION('center_axis',(9.86076131526264E-32,1.,0.));
#439=DIRECTION('ref_axis',(0.866025403784439,-9.86076131526264E-32,-0.5));
#440=DIRECTION('center_axis',(-9.86076131526264E-32,-1.,0.));
#441=DIRECTION('ref_axis',(0.866025403784439,-9.86076131526264E-32,-0.5));
#442=DIRECTION('center_axis',(9.86076131526264E-32,1.,0.));
#443=DIRECTION('ref_axis',(1.,-9.86076131526264E-32,0.));
#444=DIRECTION('center_axis',(9.86076131526264E-32,1.,0.));
#445=DIRECTION('ref_axis',(1.,-9.86076131526264E-32,0.));
#446=DIRECTION('center_axis',(-9.86076131526264E-32,-1.,0.));
#447=DIRECTION('ref_axis',(1.,-9.86076131526264E-32,0.));
#448=DIRECTION('center_axis',(9.86076131526264E-32,1.,0.));
#449=DIRECTION('ref_axis',(-1.,0.,0.));
#450=DIRECTION('center_axis',(9.86076131526264E-32,1.,0.));
#451=DIRECTION('ref_axis',(1.,-9.86076131526263E-32,0.));
#452=DIRECTION('center_axis',(9.86076131526264E-32,1.,0.));
#453=DIRECTION('ref_axis',(1.,-9.86076131526263E-32,0.));
#454=DIRECTION('center_axis',(9.86076131526264E-32,1.,0.));
#455=DIRECTION('ref_axis',(0.,0.,1.));
#456=DIRECTION('center_axis',(9.86076131526264E-32,1.,0.));
#457=DIRECTION('ref_axis',(1.,-9.86076131526263E-32,0.));
#458=DIRECTION('center_axis',(9.86076131526264E-32,1.,0.));
#459=DIRECTION('ref_axis',(-1.,0.,0.));
#460=DIRECTION('center_axis',(9.86076131526264E-32,1.,0.));
#461=DIRECTION('ref_axis',(1.,-9.86076131526263E-32,0.));
#462=DIRECTION('center_axis',(9.86076131526264E-32,1.,0.));
#463=DIRECTION('ref_axis',(0.,0.,1.));
#464=DIRECTION('center_axis',(9.86076131526264E-32,1.,0.));
#465=DIRECTION('ref_axis',(1.,-9.86076131526264E-32,0.));
#466=DIRECTION('center_axis',(9.86076131526264E-32,1.,0.));
#467=DIRECTION('ref_axis',(-1.,0.,0.));
#468=DIRECTION('center_axis',(9.86076131526264E-32,1.,0.));
#469=DIRECTION('ref_axis',(1.,-9.86076131526264E-32,0.));
#470=DIRECTION('center_axis',(9.86076131526264E-32,1.,0.));
#471=DIRECTION('ref_axis',(0.,0.,1.));
#472=DIRECTION('center_axis',(-9.86076131526264E-32,-1.,0.));
#473=DIRECTION('ref_axis',(0.,0.,-1.));
#474=CARTESIAN_POINT('',(0.,0.,0.));
#475=CARTESIAN_POINT('Origin',(9.76996261670138E-14,-458.031644513317,-155.));
#476=CARTESIAN_POINT('',(-4.76313972081431,5.42341872339445E-31,-157.75));
#477=CARTESIAN_POINT('Origin',(9.76996261670138E-14,0.,-155.));
#478=CARTESIAN_POINT('',(4.76313972081449,16.,-152.25));
#479=CARTESIAN_POINT('Origin',(9.76996261670138E-14,16.,-155.));
#480=CARTESIAN_POINT('Origin',(77.5000000000001,-458.031644513317,-134.233937586588));
#481=CARTESIAN_POINT('',(74.7500000000001,5.42341872339445E-31,-138.997077307402));
#482=CARTESIAN_POINT('Origin',(77.5000000000001,0.,-134.233937586588));
#483=CARTESIAN_POINT('',(80.2500000000001,16.,-129.470797865774));
#484=CARTESIAN_POINT('Origin',(77.5000000000001,16.,-134.233937586588));
#485=CARTESIAN_POINT('Origin',(134.233937586588,-458.031644513317,-77.5));
#486=CARTESIAN_POINT('',(134.233937586588,5.42341872339445E-31,-83.));
#487=CARTESIAN_POINT('Origin',(134.233937586588,0.,-77.5));
#488=CARTESIAN_POINT('',(134.233937586588,16.,-72.));
#489=CARTESIAN_POINT('Origin',(134.233937586588,16.,-77.5));
#490=CARTESIAN_POINT('Origin',(155.,-458.031644513317,9.76996261670138E-14));
#491=CARTESIAN_POINT('',(157.75,5.42341872339445E-31,-4.76313972081431));
#492=CARTESIAN_POINT('Origin',(155.,0.,9.76996261670138E-14));
#493=CARTESIAN_POINT('',(152.25,16.,4.76313972081449));
#494=CARTESIAN_POINT('Origin',(155.,16.,9.76996261670138E-14));
#495=CARTESIAN_POINT('Origin',(134.233937586588,-458.031644513317,77.5000000000001));
#496=CARTESIAN_POINT('',(138.997077307402,5.42341872339445E-31,74.7500000000001));
#497=CARTESIAN_POINT('Origin',(134.233937586588,0.,77.5000000000001));
#498=CARTESIAN_POINT('',(129.470797865774,16.,80.2500000000001));
#499=CARTESIAN_POINT('Origin',(134.233937586588,16.,77.5000000000001));
#500=CARTESIAN_POINT('Origin',(77.5,-458.031644513317,134.233937586588));
#501=CARTESIAN_POINT('',(83.,5.42341872339445E-31,134.233937586588));
#502=CARTESIAN_POINT('Origin',(77.5,0.,134.233937586588));
#503=CARTESIAN_POINT('',(72.,16.,134.233937586588));
#504=CARTESIAN_POINT('Origin',(77.5,16.,134.233937586588));
#505=CARTESIAN_POINT('Origin',(-7.105427357601E-14,-458.031644513317,155.));
#506=CARTESIAN_POINT('',(4.76313972081434,5.42341872339445E-31,157.75));
#507=CARTESIAN_POINT('Origin',(-7.105427357601E-14,0.,155.));
#508=CARTESIAN_POINT('',(-4.76313972081448,16.,152.25));
#509=CARTESIAN_POINT('Origin',(-7.10542735760101E-14,16.,155.));
#510=CARTESIAN_POINT('Origin',(-77.5000000000001,-458.031644513317,134.233937586588));
#511=CARTESIAN_POINT('',(-74.7500000000001,5.42341872339445E-31,138.997077307402));
#512=CARTESIAN_POINT('Origin',(-77.5000000000001,0.,134.233937586588));
#513=CARTESIAN_POINT('',(-80.2500000000001,16.,129.470797865774));
#514=CARTESIAN_POINT('Origin',(-77.5000000000001,16.,134.233937586588));
#515=CARTESIAN_POINT('Origin',(-134.233937586588,-458.031644513317,77.5));
#516=CARTESIAN_POINT('',(-134.233937586588,5.42341872339445E-31,83.));
#517=CARTESIAN_POINT('Origin',(-134.233937586588,0.,77.5));
#518=CARTESIAN_POINT('',(-134.233937586588,16.,72.));
#519=CARTESIAN_POINT('Origin',(-134.233937586588,16.,77.5));
#520=CARTESIAN_POINT('Origin',(-155.,-458.031644513317,-1.77635683940025E-14));
#521=CARTESIAN_POINT('',(-157.75,5.42341872339445E-31,4.76313972081439));
#522=CARTESIAN_POINT('Origin',(-155.,0.,-1.77635683940025E-14));
#523=CARTESIAN_POINT('',(-152.25,16.,-4.76313972081444));
#524=CARTESIAN_POINT('Origin',(-155.,16.,-1.77635683940025E-14));
#525=CARTESIAN_POINT('Origin',(-134.233937586588,-458.031644513317,-77.5));
#526=CARTESIAN_POINT('',(-138.997077307402,5.42341872339445E-31,-74.75));
#527=CARTESIAN_POINT('Origin',(-134.233937586588,0.,-77.5));
#528=CARTESIAN_POINT('',(-129.470797865774,16.,-80.25));
#529=CARTESIAN_POINT('Origin',(-134.233937586588,16.,-77.5));
#530=CARTESIAN_POINT('Origin',(-77.5,-458.031644513317,-134.233937586588));
#531=CARTESIAN_POINT('',(-83.,5.42341872339445E-31,-134.233937586588));
#532=CARTESIAN_POINT('Origin',(-77.5,0.,-134.233937586588));
#533=CARTESIAN_POINT('',(-72.,16.,-134.233937586588));
#534=CARTESIAN_POINT('Origin',(-77.5,16.,-134.233937586588));
#535=CARTESIAN_POINT('Origin',(7.88860905221009E-31,7.99999999999998,0.));
#536=CARTESIAN_POINT('',(-167.5,16.,0.));
#537=CARTESIAN_POINT('Origin',(1.57772181044202E-30,16.,0.));
#538=CARTESIAN_POINT('',(-167.5,-2.05128338857182E-14,0.));
#539=CARTESIAN_POINT('Origin',(-2.02272158846699E-45,-2.05128338857182E-14,
0.));
#540=CARTESIAN_POINT('Origin',(-130.6,16.,0.));
#541=CARTESIAN_POINT('',(-130.6,16.,0.));
#542=CARTESIAN_POINT('Origin',(1.57772181044202E-30,16.,0.));
#543=CARTESIAN_POINT('Origin',(1.39036734545203E-30,14.1,0.));
#544=CARTESIAN_POINT('',(-130.6,12.2,0.));
#545=CARTESIAN_POINT('Origin',(1.20301288046204E-30,12.2,0.));
#546=CARTESIAN_POINT('Origin',(-124.25,12.2,0.));
#547=CARTESIAN_POINT('',(-124.25,12.2,0.));
#548=CARTESIAN_POINT('Origin',(1.20301288046204E-30,12.2,0.));
#549=CARTESIAN_POINT('Origin',(1.39036734545203E-30,14.1,0.));
#550=CARTESIAN_POINT('',(-124.25,16.,0.));
#551=CARTESIAN_POINT('Origin',(1.57772181044202E-30,16.,0.));
#552=CARTESIAN_POINT('Origin',(0.,16.0000000000001,0.));
#553=CARTESIAN_POINT('Origin',(-167.5,-2.05128338857182E-14,0.));
#554=UNCERTAINTY_MEASURE_WITH_UNIT(LENGTH_MEASURE(0.01),#558,
'DISTANCE_ACCURACY_VALUE',
'Maximum model space distance between geometric entities at asserted c
onnectivities');
#555=UNCERTAINTY_MEASURE_WITH_UNIT(LENGTH_MEASURE(1.E-6),#558,
'DISTANCE_ACCURACY_VALUE',
'Maximum model space distance between geometric entities at asserted c
onnectivities');
#556=(
GEOMETRIC_REPRESENTATION_CONTEXT(3)
GLOBAL_UNCERTAINTY_ASSIGNED_CONTEXT((#554))
GLOBAL_UNIT_ASSIGNED_CONTEXT((#558,#561,#559))
REPRESENTATION_CONTEXT('','3D')
);
#557=(
GEOMETRIC_REPRESENTATION_CONTEXT(3)
GLOBAL_UNCERTAINTY_ASSIGNED_CONTEXT((#555))
GLOBAL_UNIT_ASSIGNED_CONTEXT((#558,#561,#559))
REPRESENTATION_CONTEXT('','3D')
);
#558=(
LENGTH_UNIT()
NAMED_UNIT(*)
SI_UNIT(.MILLI.,.METRE.)
);
#559=(
NAMED_UNIT(*)
SI_UNIT($,.STERADIAN.)
SOLID_ANGLE_UNIT()
);
#560=DIMENSIONAL_EXPONENTS(0.,0.,0.,0.,0.,0.,0.);
#561=(
CONVERSION_BASED_UNIT('degree',#563)
NAMED_UNIT(#560)
PLANE_ANGLE_UNIT()
);
#562=(
NAMED_UNIT(*)
PLANE_ANGLE_UNIT()
SI_UNIT($,.RADIAN.)
);
#563=PLANE_ANGLE_MEASURE_WITH_UNIT(PLANE_ANGLE_MEASURE(0.01745329252),#562);
#564=SHAPE_DEFINITION_REPRESENTATION(#565,#566);
#565=PRODUCT_DEFINITION_SHAPE('',$,#568);
#566=SHAPE_REPRESENTATION('',(#324),#556);
#567=PRODUCT_DEFINITION_CONTEXT('part definition',#572,'design');
#568=PRODUCT_DEFINITION('ISOF-BL-250','ISOF-BL-250',#569,#567);
#569=PRODUCT_DEFINITION_FORMATION('',$,#574);
#570=PRODUCT_RELATED_PRODUCT_CATEGORY('ISOF-BL-250','ISOF-BL-250',(#574));
#571=APPLICATION_PROTOCOL_DEFINITION('international standard',
'automotive_design',2009,#572);
#572=APPLICATION_CONTEXT(
'Core Data for Automotive Mechanical Design Process');
#573=PRODUCT_CONTEXT('part definition',#572,'mechanical');
#574=PRODUCT('ISOF-BL-250','ISOF-BL-250',$,(#573));
#575=PRESENTATION_STYLE_ASSIGNMENT((#576));
#576=SURFACE_STYLE_USAGE(.BOTH.,#577);
#577=SURFACE_SIDE_STYLE('',(#578));
#578=SURFACE_STYLE_FILL_AREA(#579);
#579=FILL_AREA_STYLE('',(#580));
#580=FILL_AREA_STYLE_COLOUR('',#581);
#581=COLOUR_RGB('',0.749019607843137,0.749019607843137,0.749019607843137);
ENDSEC;
END-ISO-10303-21;
